Celtic Woman - Ride On

Judul : Celtic Woman - Ride On
Artist : Celtic Woman
Genre : Funk
Language : English
Published : November 05, 2021
Download :

[Verse   1]
True,   you   ride   the   finest   horse   I   have   ever   seen
Standing   sixteen   one   or   two,   with   eyes   wild   and   green
And   you   ride   the   horse   so   well,   hands   light   to   the   touch
I   could   never   go   with   you,   no   matter   how   I   wanted   to
 
[Chorus]
Ride   on,   see   you,   I   could   never   go   with   you
No   matter   how   I   wanted   to
Ride   on,   see   you,   I   could   never   go   with   you
No   matter   how   I   wanted   to
 
[Instrumental]
 
e|---------2-0-2-3-7-12----15/14/15-12-7-5----3-2-3-5-7-0--------|
B|--4/5----------------------------------------------------------|
G|-4-------------------------------------------------------------|
D|---------------------------------------------------------------|
A|---------------------------------------------------------------|
E|---------------------------------------------------------------|
 
[Verse   2]
When   you   ride   into   the   night   without   a   trace   behind
Run   you   claw   along   my   gut   one   last   time
I   turn   to   face   an   empty   space   where   you   used   to   lie
I   look   for   the   spark   that   lights   the   night
Through   the   teardrops   in   my   eye
 
[Chorus]
Ride   on,   see   you,   I   could   never   go   with   you
No   matter   how   I   wanted   to
Ride   on,   see   you,   I   could   never   go   with   you
No   matter   how   I   wanted   to
 
Ride   on,   see   you,   I   could   never   go   with   you
No   matter   how   I   wanted   to
Ride   on,   see   you,   I   could   never   go   with   you
No   matter   how   I   wanted   to
 
I   could   never   go   with   you
No   matter   how   I   wanted   to
 
[Outro   Instrumental]
 
e|---------2-0-2-3-7-12----15/14/15-12-7-5----3-2-3-5-7-0--------|
B|--4/5----------------------------------------------------------|
G|-4-------------------------------------------------------------|
D|---------------------------------------------------------------|
A|---------------------------------------------------------------|
E|---------------------------------------------------------------|
e|---3\------2-0-2-3-7-12----15/14/15-12-7-5----3-2-3-5-7-3/0----|
B|-----\5--------------------------------------------------------|
G|-4-------------------------------------------------------------|
D|---------------------------------------------------------------|
A|---------------------------------------------------------------|