Bryan White - Thats Another Song

Judul : Bryan White - Thats Another Song
Artist : Bryan White
Genre : Pop
Language : English
Published : November 01, 2021
Download :

Intro

e|-----------------------|-------5--3--------------|
B|-0-----0-1----------1--|-3-----3--3------------1-|
G|-0-----0-0-------0--0--|--------------------0--0-|
D|---0---------0h2-------|----0-----------0h2------|
A|--2--------------------|-------------------------|
E|-3---------------------|-3-----------3-----------|
 
e|--------------0---3-3-----|
B|-0----0-----3---1---0-----|
G|-0----0-0---0---0---0-----|
D|---0----0-----------0-----|
A|--2-----------------2-----|
E|-3----------3---3---3-----|
 
 
[Verse   1]
    I   used   to   sing   to   her,.......   it   used   to   make   her   smile
    And   she   knew   all   the   words   for   a   while
    I   sang   Love   me   Tender,   Always   and   forever
    Hold   me   baby   all   night   long
    I   could   go   on   and   on,    but   that's   another   song
 
 
[Verse   2]
    We   used   to   go   for   walks,    on   a   country   road   like    this
    It's   funny   all   the   small   things   you   miss
    Like   puttin'   pennies   on   a   train   track,   the   way   you   brushed   your   hair   back
   The   sun   on   your   face   
    I   wish   I   were   there   today,    but   that's   another   place
 
 
[Chorus]
    Oh   the   way   I   used   to   hold,   and   the   things   I   shoulda'   told   her
    If   I   could   make   this   clock   unwind
    Back   to   when   she   was   mine,    but   that's   another   time
 
 
[Instrumental]
 
 
[Bridge]
    Oh   the   way   I   used   to   hold   her,   the   things   I   shoulda'   told   her
    If   I   could   make   this   clock   unwind
    Back   to   when   she   was   mine,    but   that's   another   time
  I   could   go   on   and   on   and   on,    but   that's   another   song
 
 
[Outro]
 
e|-----------------------|-------5--3--------------|
B|-0-----0-1----------1--|-3-----3--3------------1-|
G|-0-----0-0-------0--0--|--------------------0--0-|
D|---0---------0h2-------|----0-----------0h2------|
A|--2--------------------|-------------------------|
E|-3---------------------|-3-----------3-----------|